  0
SECTION
  2
HEADER
  9
$ACADVER
  1
AC1015
  9
$ACADMAINTVER
 70
     6
  9
$DWGCODEPAGE
  3
ANSI_1254
  9
$INSBASE
 10
0.0
 20
0.0
 30
0.0
  9
$EXTMIN
 10
0.0
 20
0.0
 30
0.0
  9
$EXTMAX
 10
279.4
 20
215.9
 30
0.0
  9
$LIMMIN
 10
0.0
 20
0.0
  9
$LIMMAX
 10
279.4
 20
215.9
  9
$ORTHOMODE
 70
     0
  9
$REGENMODE
 70
     1
  9
$FILLMODE
 70
     1
  9
$QTEXTMODE
 70
     0
  9
$MIRRTEXT
 70
     1
  9
$LTSCALE
 40
1.0
  9
$ATTMODE
 70
     1
  9
$TEXTSIZE
 40
3.5
  9
$TRACEWID
 40
1.0
  9
$TEXTSTYLE
  7
Standard
  9
$CLAYER
  8
0
  9
$CELTYPE
  6
ByLayer
  9
$CECOLOR
 62
   256
  9
$CELTSCALE
 40
1.0
  9
$DISPSILH
 70
     0
  9
$DIMSCALE
 40
1.0
  9
$DIMASZ
 40
3.5
  9
$DIMEXO
 40
1.0
  9
$DIMDLI
 40
3.75
  9
$DIMRND
 40
0.0
  9
$DIMDLE
 40
0.0
  9
$DIMEXE
 40
1.0
  9
$DIMTP
 40
0.0
  9
$DIMTM
 40
0.0
  9
$DIMTXT
 40
3.5
  9
$DIMCEN
 40
2.5
  9
$DIMTSZ
 40
0.0
  9
$DIMTOL
 70
     0
  9
$DIMLIM
 70
     0
  9
$DIMTIH
 70
     1
  9
$DIMTOH
 70
     1
  9
$DIMSE1
 70
     0
  9
$DIMSE2
 70
     0
  9
$DIMTAD
 70
     1
  9
$DIMZIN
 70
     0
  9
$DIMBLK
  1

  9
$DIMASO
 70
     1
  9
$DIMSHO
 70
     1
  9
$DIMPOST
  1

  9
$DIMAPOST
  1

  9
$DIMALT
 70
     0
  9
$DIMALTD
 70
     3
  9
$DIMALTF
 40
0.0393700787
  9
$DIMLFAC
 40
1.0
  9
$DIMTOFL
 70
     1
  9
$DIMTVP
 40
0.0
  9
$DIMTIX
 70
     0
  9
$DIMSOXD
 70
     0
  9
$DIMSAH
 70
     0
  9
$DIMBLK1
  1

  9
$DIMBLK2
  1

  9
$DIMSTYLE
  2
ISO-25
  9
$DIMCLRD
 70
     0
  9
$DIMCLRE
 70
     0
  9
$DIMCLRT
 70
     0
  9
$DIMTFAC
 40
1.0
  9
$DIMGAP
 40
1.524
  9
$DIMJUST
 70
     0
  9
$DIMSD1
 70
     0
  9
$DIMSD2
 70
     0
  9
$DIMTOLJ
 70
     0
  9
$DIMTZIN
 70
     0
  9
$DIMALTZ
 70
     0
  9
$DIMALTTZ
 70
     0
  9
$DIMUPT
 70
     0
  9
$DIMDEC
 70
     2
  9
$DIMTDEC
 70
     2
  9
$DIMALTU
 70
     2
  9
$DIMALTTD
 70
     3
  9
$DIMTXSTY
  7
Standard
  9
$DIMAUNIT
 70
     0
  9
$DIMADEC
 70
     2
  9
$DIMALTRND
 40
0.0
  9
$DIMAZIN
 70
     0
  9
$DIMDSEP
 70
    44
  9
$DIMATFIT
 70
     3
  9
$DIMFRAC
 70
     0
  9
$DIMLDRBLK
  1

  9
$DIMLUNIT
 70
     2
  9
$DIMLWD
 70
    -2
  9
$DIMLWE
 70
    -2
  9
$DIMTMOVE
 70
     0
  9
$LUNITS
 70
     2
  9
$LUPREC
 70
     2
  9
$SKETCHINC
 40
1.0
  9
$FILLETRAD
 40
10.0
  9
$AUNITS
 70
     0
  9
$AUPREC
 70
     2
  9
$MENU
  1
.
  9
$ELEVATION
 40
0.0
  9
$PELEVATION
 40
0.0
  9
$THICKNESS
 40
0.0
  9
$LIMCHECK
 70
     0
  9
$CHAMFERA
 40
0.0
  9
$CHAMFERB
 40
0.0
  9
$CHAMFERC
 40
0.0
  9
$CHAMFERD
 40
0.0
  9
$SKPOLY
 70
     0
  9
$TDCREATE
 40
2458985.699412384
  9
$TDUCREATE
 40
2458985.574412384
  9
$TDUPDATE
 40
2458985.699412662
  9
$TDUUPDATE
 40
2458985.574412662
  9
$TDINDWG
 40
0.0000000116
  9
$TDUSRTIMER
 40
0.0000000116
  9
$USRTIMER
 70
     1
  9
$ANGBASE
 50
0.0
  9
$ANGDIR
 70
     0
  9
$PDMODE
 70
     0
  9
$PDSIZE
 40
-1.0
  9
$PLINEWID
 40
0.0
  9
$SPLFRAME
 70
     0
  9
$SPLINETYPE
 70
     6
  9
$SPLINESEGS
 70
     8
  9
$HANDSEED
  5
EF
  9
$SURFTAB1
 70
     6
  9
$SURFTAB2
 70
     6
  9
$SURFTYPE
 70
     6
  9
$SURFU
 70
     6
  9
$SURFV
 70
     6
  9
$UCSBASE
  2

  9
$UCSNAME
  2

  9
$UCSORG
 10
0.0
 20
0.0
 30
0.0
  9
$UCSXDIR
 10
1.0
 20
0.0
 30
0.0
  9
$UCSYDIR
 10
0.0
 20
1.0
 30
0.0
  9
$UCSORTHOREF
  2

  9
$UCSORTHOVIEW
 70
     0
  9
$UCSORGTOP
 10
0.0
 20
0.0
 30
0.0
  9
$UCSORGBOTTOM
 10
0.0
 20
0.0
 30
0.0
  9
$UCSORGLEFT
 10
0.0
 20
0.0
 30
0.0
  9
$UCSORGRIGHT
 10
0.0
 20
0.0
 30
0.0
  9
$UCSORGFRONT
 10
0.0
 20
0.0
 30
0.0
  9
$UCSORGBACK
 10
0.0
 20
0.0
 30
0.0
  9
$PUCSBASE
  2

  9
$PUCSNAME
  2

  9
$PUCSORG
 10
0.0
 20
0.0
 30
0.0
  9
$PUCSXDIR
 10
1.0
 20
0.0
 30
0.0
  9
$PUCSYDIR
 10
0.0
 20
1.0
 30
0.0
  9
$PUCSORTHOREF
  2

  9
$PUCSORTHOVIEW
 70
     0
  9
$PUCSORGTOP
 10
0.0
 20
0.0
 30
0.0
  9
$PUCSORGBOTTOM
 10
0.0
 20
0.0
 30
0.0
  9
$PUCSORGLEFT
 10
0.0
 20
0.0
 30
0.0
  9
$PUCSORGRIGHT
 10
0.0
 20
0.0
 30
0.0
  9
$PUCSORGFRONT
 10
0.0
 20
0.0
 30
0.0
  9
$PUCSORGBACK
 10
0.0
 20
0.0
 30
0.0
  9
$USERI1
 70
     0
  9
$USERI2
 70
     0
  9
$USERI3
 70
     0
  9
$USERI4
 70
     0
  9
$USERI5
 70
     0
  9
$USERR1
 40
0.0
  9
$USERR2
 40
0.0
  9
$USERR3
 40
0.0
  9
$USERR4
 40
0.0
  9
$USERR5
 40
0.0
  9
$WORLDVIEW
 70
     1
  9
$SHADEDGE
 70
     3
  9
$SHADEDIF
 70
    70
  9
$TILEMODE
 70
     1
  9
$MAXACTVP
 70
    64
  9
$PINSBASE
 10
0.0
 20
0.0
 30
0.0
  9
$PLIMCHECK
 70
     0
  9
$PEXTMIN
 10
1.0000000000E+20
 20
1.0000000000E+20
 30
1.0000000000E+20
  9
$PEXTMAX
 10
-1.0000000000E+20
 20
-1.0000000000E+20
 30
-1.0000000000E+20
  9
$PLIMMIN
 10
0.0
 20
0.0
  9
$PLIMMAX
 10
420.0
 20
297.0
  9
$UNITMODE
 70
     0
  9
$VISRETAIN
 70
     1
  9
$PLINEGEN
 70
     0
  9
$PSLTSCALE
 70
     1
  9
$TREEDEPTH
 70
  3020
  9
$CMLSTYLE
  2
Standard
  9
$CMLJUST
 70
     0
  9
$CMLSCALE
 40
20.0
  9
$PROXYGRAPHICS
 70
     1
  9
$MEASUREMENT
 70
     1
  9
$CELWEIGHT
370
    -1
  9
$ENDCAPS
280
     0
  9
$JOINSTYLE
280
     0
  9
$LWDISPLAY
290
     1
  9
$INSUNITS
 70
     4
  9
$HYPERLINKBASE
  1

  9
$STYLESHEET
  1

  9
$XEDIT
290
     1
  9
$CEPSNTYPE
380
     0
  9
$PSTYLEMODE
290
     1
  9
$FINGERPRINTGUID
  2
{fc98901b-a8cc-47da-bc4a-22ceece50bfb}
  9
$VERSIONGUID
  2
{FAEB1C32-E019-11D5-929B-00C0DF256EC4}
  9
$EXTNAMES
290
     1
  9
$PSVPSCALE
 40
0.0
  9
$OLESTARTUP
290
     0
  0
ENDSEC
  0
SECTION
  2
CLASSES
  0
CLASS
  1
ACDBDICTIONARYWDFLT
  2
AcDbDictionaryWithDefault
  3
ObjectDBX Classes
 90
        0
280
     0
281
     0
  0
CLASS
  1
VISUALSTYLE
  2
AcDbVisualStyle
  3
ObjectDBX Classes
 90
     4095
280
     0
281
     0
  0
CLASS
  1
MATERIAL
  2
AcDbMaterial
  3
ObjectDBX Classes
 90
     1153
280
     0
281
     0
  0
CLASS
  1
SCALE
  2
AcDbScale
  3
ObjectDBX Classes
 90
     1153
280
     0
281
     0
  0
CLASS
  1
TABLESTYLE
  2
AcDbTableStyle
  3
ObjectDBX Classes
 90
     4095
280
     0
281
     0
  0
CLASS
  1
MLEADERSTYLE
  2
AcDbMLeaderStyle
  3
ACDB_MLEADERSTYLE_CLASS
 90
     4095
280
     0
281
     0
  0
CLASS
  1
SUN
  2
AcDbSun
  3
SCENEOE
 90
     1153
280
     0
281
     0
  0
CLASS
  1
ACDBPLACEHOLDER
  2
AcDbPlaceHolder
  3
ObjectDBX Classes
 90
        0
280
     0
281
     0
  0
CLASS
  1
LAYOUT
  2
AcDbLayout
  3
ObjectDBX Classes
 90
        0
280
     0
281
     0
  0
ENDSEC
  0
SECTION
  2
TABLES
  0
TABLE
  2
VPORT
  5
8
330
0
100
AcDbSymbolTable
 70
     1
  0
VPORT
  5
29
330
8
100
AcDbSymbolTableRecord
100
AcDbViewportTableRecord
  2
*Active
 70
     0
 10
0.0
 20
0.0
 11
1.0
 21
1.0
 12
139.7
 22
107.95
 13
0.0
 23
0.0
 14
10.0
 24
10.0
 15
10.0
 25
10.0
 16
0.0
 26
0.0
 36
1.0
 17
0.0
 27
0.0
 37
0.0
 40
215.9
 41
1.2941176471
 42
50.0
 43
0.0
 44
0.0
 50
0.0
 51
0.0
 71
     0
 72
  2000
 73
     1
 74
     3
 75
     0
 76
     0
 77
     0
 78
     0
281
     0
 65
     1
110
0.0
120
0.0
130
0.0
111
1.0
121
0.0
131
0.0
112
0.0
122
1.0
132
0.0
 79
     0
146
0.0
  0
ENDTAB
  0
TABLE
  2
LTYPE
  5
5
330
0
100
AcDbSymbolTable
 70
     6
  0
LTYPE
  5
14
330
5
100
AcDbSymbolTableRecord
100
AcDbLinetypeTableRecord
  2
ByBlock
 70
     0
  3

 72
    65
 73
     0
 40
0.0
  0
LTYPE
  5
15
330
5
100
AcDbSymbolTableRecord
100
AcDbLinetypeTableRecord
  2
ByLayer
 70
     0
  3

 72
    65
 73
     0
 40
0.0
  0
LTYPE
  5
16
330
5
100
AcDbSymbolTableRecord
100
AcDbLinetypeTableRecord
  2
Continuous
 70
     0
  3
Solid line
 72
    65
 73
     0
 40
0.0
  0
LTYPE
  5
6E
330
5
100
AcDbSymbolTableRecord
100
AcDbLinetypeTableRecord
  2
HIDDEN
 70
     0
  3
Hidden __ __ __ __ __ __ __ __ __ __ __ __ __ __
 72
    65
 73
     2
 40
1.905
 49
1.27
 74
     0
 49
-0.635
 74
     0
  0
LTYPE
  5
6F
330
5
100
AcDbSymbolTableRecord
100
AcDbLinetypeTableRecord
  2
PHANTOM
 70
     0
  3
Phantom ______  __  __  ______  __  __  ______
 72
    65
 73
     6
 40
12.7
 49
6.35
 74
     0
 49
-1.27
 74
     0
 49
1.27
 74
     0
 49
-1.27
 74
     0
 49
1.27
 74
     0
 49
-1.27
 74
     0
  0
LTYPE
  5
70
330
5
100
AcDbSymbolTableRecord
100
AcDbLinetypeTableRecord
  2
CENTER
 70
     0
  3
Center ____ _ ____ _ ____ _ ____ _ ____ _ ____
 72
    65
 73
     4
 40
10.16
 49
6.35
 74
     0
 49
-1.27
 74
     0
 49
1.27
 74
     0
 49
-1.27
 74
     0
  0
LTYPE
  5
71
330
5
100
AcDbSymbolTableRecord
100
AcDbLinetypeTableRecord
  2
CENTERX2
 70
     0
  3
Center (2x) ________  __  ________  __  _____
 72
    65
 73
     4
 40
20.32
 49
12.7
 74
     0
 49
-2.54
 74
     0
 49
2.54
 74
     0
 49
-2.54
 74
     0
  0
LTYPE
  5
72
330
5
100
AcDbSymbolTableRecord
100
AcDbLinetypeTableRecord
  2
DOT2
 70
     0
  3
Dot (.5x) ........................................
 72
    65
 73
     2
 40
0.635
 49
0.0
 74
     0
 49
-0.635
 74
     0
  0
ENDTAB
  0
TABLE
  2
LAYER
  5
2
330
0
100
AcDbSymbolTable
 70
    17
  0
LAYER
  5
10
330
2
100
AcDbSymbolTableRecord
100
AcDbLayerTableRecord
  2
0
 70
     0
 62
     7
  6
Continuous
370
    -3
390
F
  0
LAYER
  5
73
330
2
100
AcDbSymbolTableRecord
100
AcDbLayerTableRecord
  2
FORMAT
 70
     0
 62
     7
  6
Continuous
370
    -3
390
F
  0
LAYER
  5
74
330
2
100
AcDbSymbolTableRecord
100
AcDbLayerTableRecord
  2
YARDIMCI_GEOMETRI
 70
     0
 62
    -6
  6
Continuous
290
     0
370
    -3
390
F
  0
LAYER
  5
75
330
2
100
AcDbSymbolTableRecord
100
AcDbLayerTableRecord
  2
SAYFA_CERCEVESI
 70
     0
 62
     7
  6
Continuous
370
    25
390
F
  0
LAYER
  5
76
330
2
100
AcDbSymbolTableRecord
100
AcDbLayerTableRecord
  2
ANTET
 70
     0
 62
     7
  6
Continuous
370
    -3
390
F
  0
LAYER
  5
77
330
2
100
AcDbSymbolTableRecord
100
AcDbLayerTableRecord
  2
OLCU
 70
     0
 62
   150
  6
Continuous
370
    -3
390
F
  0
LAYER
  5
78
330
2
100
AcDbSymbolTableRecord
100
AcDbLayerTableRecord
  2
METIN
 70
     0
 62
    96
  6
Continuous
370
    -3
390
F
  0
LAYER
  5
79
330
2
100
AcDbSymbolTableRecord
100
AcDbLayerTableRecord
  2
BALON
 70
     0
 62
     5
  6
Continuous
370
    -3
390
F
  0
LAYER
  5
7A
330
2
100
AcDbSymbolTableRecord
100
AcDbLayerTableRecord
  2
VURGU
 70
     0
 62
     7
  6
Continuous
370
    -3
390
F
  0
LAYER
  5
7B
330
2
100
AcDbSymbolTableRecord
100
AcDbLayerTableRecord
  2
SILIK
 70
     0
 62
     7
  6
Continuous
370
    -3
390
F
  0
LAYER
  5
7C
330
2
100
AcDbSymbolTableRecord
100
AcDbLayerTableRecord
  2
MODEL
 70
     0
 62
     7
  6
Continuous
370
    -3
390
F
  0
LAYER
  5
7D
330
2
100
AcDbSymbolTableRecord
100
AcDbLayerTableRecord
  2
DETAYLANDıRMA
 70
     0
 62
   190
  6
Continuous
370
    -3
390
F
  0
LAYER
  5
7E
330
2
100
AcDbSymbolTableRecord
100
AcDbLayerTableRecord
  2
TOLERANS
 70
     0
 62
   230
  6
Continuous
370
    -3
390
F
  0
LAYER
  5
7F
330
2
100
AcDbSymbolTableRecord
100
AcDbLayerTableRecord
  2
MERKEZ_CIZGILERI
 70
     0
 62
    30
  6
Continuous
370
    -3
390
F
  0
LAYER
  5
80
330
2
100
AcDbSymbolTableRecord
100
AcDbLayerTableRecord
  2
KESIT-DETAY_CIZGILERI
 70
     0
 62
     7
  6
Continuous
370
    -3
390
F
  0
LAYER
  5
81
330
2
100
AcDbSymbolTableRecord
100
AcDbLayerTableRecord
  2
\U+041E\U+0421\U+0415\U+0412\U+042B\U+0415
 70
     0
 62
     7
  6
Continuous
370
    -3
390
F
  0
LAYER
  5
82
330
2
100
AcDbSymbolTableRecord
100
AcDbLayerTableRecord
  2
\U+0412\U+041E\U+0414\U+042F\U+041D\U+042B\U+0415_\U+0417\U+041D\U+0410\U+041A\U+0418
 70
     0
 62
    11
  6
Continuous
370
    -3
390
F
  0
ENDTAB
  0
TABLE
  2
STYLE
  5
3
330
0
100
AcDbSymbolTable
 70
     1
  0
STYLE
  5
11
330
3
100
AcDbSymbolTableRecord
100
AcDbTextStyleTableRecord
  2
Standard
 70
     0
 40
0.0
 41
1.0
 50
0.0
 71
     0
 42
3.5
  3
txt
  4

  0
ENDTAB
  0
TABLE
  2
VIEW
  5
6
330
0
100
AcDbSymbolTable
 70
     0
  0
ENDTAB
  0
TABLE
  2
UCS
  5
7
330
0
100
AcDbSymbolTable
 70
     0
  0
ENDTAB
  0
TABLE
  2
APPID
  5
9
330
0
100
AcDbSymbolTable
 70
     1
  0
APPID
  5
12
330
9
100
AcDbSymbolTableRecord
100
AcDbRegAppTableRecord
  2
ACAD
 70
     0
  0
ENDTAB
  0
TABLE
  2
DIMSTYLE
  5
A
330
0
100
AcDbSymbolTable
 70
     1
100
AcDbDimStyleTable
  0
DIMSTYLE
105
27
330
A
100
AcDbSymbolTableRecord
100
AcDbDimStyleTableRecord
  2
ISO-25
 70
     0
 41
2.5
 42
0.625
 43
3.75
 44
1.25
 73
     0
 74
     0
 77
     1
 78
     8
140
2.5
141
2.5
143
0.0393700787
147
0.625
171
     3
172
     1
178
     0
271
     2
272
     2
274
     3
278
    44
283
     0
284
     8
340
11
  0
ENDTAB
  0
TABLE
  2
BLOCK_RECORD
  5
1
330
0
100
AcDbSymbolTable
 70
     2
  0
BLOCK_RECORD
  5
1F
330
1
100
AcDbSymbolTableRecord
100
AcDbBlockTableRecord
  2
*Model_Space
340
22
  0
BLOCK_RECORD
  5
1B
330
1
100
AcDbSymbolTableRecord
100
AcDbBlockTableRecord
  2
*Paper_Space
340
1E
  0
BLOCK_RECORD
  5
23
330
1
100
AcDbSymbolTableRecord
100
AcDbBlockTableRecord
  2
*Paper_Space0
340
26
  0
BLOCK_RECORD
  5
88
330
1
100
AcDbSymbolTableRecord
100
AcDbBlockTableRecord
  2
SW_CENTERMARKSYMBOL_0
340
0
102
{BLKREFS
331
93
102
}
  0
ENDTAB
  0
ENDSEC
  0
SECTION
  2
BLOCKS
  0
BLOCK
  5
20
330
1F
100
AcDbEntity
  8
0
100
AcDbBlockBegin
  2
*Model_Space
 70
     0
 10
0.0
 20
0.0
 30
0.0
  3
*Model_Space
  1

  0
ENDBLK
  5
21
330
1F
100
AcDbEntity
  8
0
100
AcDbBlockEnd
  0
BLOCK
  5
1C
330
1B
100
AcDbEntity
 67
     1
  8
0
100
AcDbBlockBegin
  2
*Paper_Space
 70
     0
 10
0.0
 20
0.0
 30
0.0
  3
*Paper_Space
  1

  0
ENDBLK
  5
1D
330
1B
100
AcDbEntity
 67
     1
  8
0
100
AcDbBlockEnd
  0
BLOCK
  5
24
330
23
100
AcDbEntity
  8
0
100
AcDbBlockBegin
  2
*Paper_Space0
 70
     0
 10
0.0
 20
0.0
 30
0.0
  3
*Paper_Space0
  1

  0
ENDBLK
  5
25
330
23
100
AcDbEntity
  8
0
100
AcDbBlockEnd
  0
BLOCK
  5
89
330
88
100
AcDbEntity
  8
0
100
AcDbBlockBegin
  2
SW_CENTERMARKSYMBOL_0
 70
     0
 10
0.0
 20
0.0
 30
0.0
  3
SW_CENTERMARKSYMBOL_0
  1

  0
LINE
  5
8B
330
88
100
AcDbEntity
  8
FORMAT
 62
     0
100
AcDbLine
 10
0.0
 20
0.0
 30
0.0
 11
0.0
 21
2.5
 31
0.0
  0
LINE
  5
8C
330
88
100
AcDbEntity
  8
FORMAT
 62
     0
100
AcDbLine
 10
0.0
 20
0.0
 30
0.0
 11
-2.5
 21
0.0
 31
0.0
  0
LINE
  5
8D
330
88
100
AcDbEntity
  8
FORMAT
 62
     0
100
AcDbLine
 10
0.0
 20
0.0
 30
0.0
 11
0.0
 21
-2.5
 31
0.0
  0
LINE
  5
8E
330
88
100
AcDbEntity
  8
FORMAT
 62
     0
100
AcDbLine
 10
0.0
 20
0.0
 30
0.0
 11
2.5
 21
0.0
 31
0.0
  0
LINE
  5
8F
330
88
100
AcDbEntity
  8
FORMAT
 62
     0
100
AcDbLine
 10
0.0
 20
5.0
 30
0.0
 11
0.0
 21
102.5
 31
0.0
  0
LINE
  5
90
330
88
100
AcDbEntity
  8
FORMAT
 62
     0
100
AcDbLine
 10
-5.0
 20
0.0
 30
0.0
 11
-102.5
 21
0.0
 31
0.0
  0
LINE
  5
91
330
88
100
AcDbEntity
  8
FORMAT
 62
     0
100
AcDbLine
 10
0.0
 20
-5.0
 30
0.0
 11
0.0
 21
-102.5
 31
0.0
  0
LINE
  5
92
330
88
100
AcDbEntity
  8
FORMAT
 62
     0
100
AcDbLine
 10
5.0
 20
0.0
 30
0.0
 11
102.5
 21
0.0
 31
0.0
  0
ENDBLK
  5
8A
330
88
100
AcDbEntity
  8
0
100
AcDbBlockEnd
  0
ENDSEC
  0
SECTION
  2
ENTITIES
  0
CIRCLE
  5
83
330
1F
100
AcDbEntity
  8
0
  6
Continuous
 62
     7
370
    25
100
AcDbCircle
 10
139.395004093
 20
107.5851680021
 30
0.0
 40
100.0
  0
CIRCLE
  5
84
330
1F
100
AcDbEntity
  8
0
  6
Continuous
 62
     7
370
    25
100
AcDbCircle
 10
139.395004093
 20
107.5851680021
 30
0.0
 40
81.80000000000001
  0
CIRCLE
  5
85
330
1F
100
AcDbEntity
  8
0
  6
Continuous
 62
     7
370
    25
100
AcDbCircle
 10
139.395004093
 20
107.5851680021
 30
0.0
 40
81.72730057872174
  0
CIRCLE
  5
86
330
1F
100
AcDbEntity
  8
0
  6
Continuous
 62
     7
370
    25
100
AcDbCircle
 10
139.395004093
 20
107.5851680021
 30
0.0
 40
73.6726994212783
  0
CIRCLE
  5
87
330
1F
100
AcDbEntity
  8
0
  6
Continuous
 62
     7
370
    25
100
AcDbCircle
 10
139.395004093
 20
107.5851680021
 30
0.0
 40
73.60000000000002
  0
INSERT
  5
93
330
1F
100
AcDbEntity
  8
FORMAT
 62
     7
100
AcDbBlockReference
  2
SW_CENTERMARKSYMBOL_0
 10
139.395004093
 20
107.5851680021
 30
0.0
  0
LINE
  5
94
330
1F
100
AcDbEntity
  8
0
  6
Continuous
 62
     7
370
    25
100
AcDbLine
 10
-189.5547014528
 20
207.5851694922
 30
0.0
 11
-301.383557623
 21
207.5851694922
 31
0.0
  0
LINE
  5
95
330
1F
100
AcDbEntity
  8
0
  6
Continuous
 62
     7
370
    25
100
AcDbLine
 10
-301.383557623
 20
7.585166512
 30
0.0
 11
-189.5547014528
 21
7.585166512
 31
0.0
  0
ARC
  5
96
330
1F
100
AcDbEntity
  8
0
  6
Continuous
 62
     7
370
    25
100
AcDbCircle
 10
-189.5547021516
 20
205.5851680021
 30
0.0
 40
2.000000000000028
100
AcDbArc
 50
80.2175929682
 51
90.0
  0
ARC
  5
97
330
1F
100
AcDbEntity
  8
0
  6
Continuous
 62
     7
370
    25
100
AcDbCircle
 10
-189.5547021516
 20
9.5851680021
 30
0.0
 40
2.000000000000003
100
AcDbArc
 50
270.0
 51
279.7824070318
  0
LINE
  5
98
330
1F
100
AcDbEntity
  8
0
  6
Continuous
 62
     7
370
    25
100
AcDbLine
 10
-189.2148879224
 20
7.6142461281
 30
0.0
 11
-131.5522146279
 21
17.5560848098
 31
0.0
  0
LINE
  5
99
330
1F
100
AcDbEntity
  8
0
  6
Continuous
 62
     7
370
    25
100
AcDbLine
 10
-131.5522146279
 20
197.6142511945
 30
0.0
 11
-189.2148879224
 21
207.5560898762
 31
0.0
  0
ARC
  5
9A
330
1F
100
AcDbEntity
  8
0
  6
Continuous
 62
     7
370
    25
100
AcDbCircle
 10
-131.2123998003
 20
199.5851680021
 30
0.0
 40
2.0
100
AcDbArc
 50
260.2175929682
 51
270.0
  0
ARC
  5
9B
330
1F
100
AcDbEntity
  8
0
  6
Continuous
 62
     7
370
    25
100
AcDbCircle
 10
-131.2123998003
 20
15.5851680021
 30
0.0
 40
2.000000000000004
100
AcDbArc
 50
90.0
 51
99.7824070318
  0
LINE
  5
9C
330
1F
100
AcDbEntity
  8
0
  6
Continuous
 62
     7
370
    25
100
AcDbLine
 10
-26.3835516626
 20
197.5851715784
 30
0.0
 11
-131.2124010974
 21
197.5851715784
 31
0.0
  0
LINE
  5
9D
330
1F
100
AcDbEntity
  8
0
  6
Continuous
 62
     7
370
    25
100
AcDbLine
 10
-131.2124010974
 20
17.5851644258
 30
0.0
 11
-26.3835516626
 21
17.5851644258
 31
0.0
  0
LINE
  5
9E
330
1F
100
AcDbEntity
  8
0
  6
Continuous
 62
     7
370
    25
100
AcDbLine
 10
-301.383557623
 20
207.5851694922
 30
0.0
 11
-301.383557623
 21
7.585166512
 31
0.0
  0
LINE
  5
9F
330
1F
100
AcDbEntity
  8
0
  6
Continuous
 62
     7
370
    25
100
AcDbLine
 10
-26.3835516626
 20
197.5851715784
 30
0.0
 11
-26.3835516626
 21
17.5851644258
 31
0.0
  0
LINE
  5
A0
330
1F
100
AcDbEntity
  8
0
  6
Continuous
 62
     1
370
    25
100
AcDbLine
 10
-189.5547014528
 20
207.5851694922
 30
0.0
 11
-189.5547014528
 21
7.585166512
 31
0.0
  0
LINE
  5
A1
330
1F
100
AcDbEntity
  8
0
  6
Continuous
 62
     1
370
    25
100
AcDbLine
 10
-189.2148879224
 20
207.5560898762
 30
0.0
 11
-189.2148879224
 21
7.6142461281
 31
0.0
  0
LINE
  5
A2
330
1F
100
AcDbEntity
  8
0
  6
Continuous
 62
     1
370
    25
100
AcDbLine
 10
-131.5522146279
 20
197.6142511945
 30
0.0
 11
-131.5522146279
 21
17.5560848098
 31
0.0
  0
LINE
  5
A3
330
1F
100
AcDbEntity
  8
0
  6
Continuous
 62
     1
370
    25
100
AcDbLine
 10
-131.2124010974
 20
197.5851715784
 30
0.0
 11
-131.2124010974
 21
17.5851644258
 31
0.0
  0
LINE
  5
A4
330
1F
100
AcDbEntity
  8
0
  6
Continuous
 62
     7
370
    25
100
AcDbLine
 10
461.3223604068
 20
7.585166512
 30
0.0
 11
573.151216577
 21
7.585166512
 31
0.0
  0
LINE
  5
A5
330
1F
100
AcDbEntity
  8
0
  6
Continuous
 62
     7
370
    25
100
AcDbLine
 10
573.151216577
 20
207.5851694922
 30
0.0
 11
461.3223604068
 21
207.5851694922
 31
0.0
  0
ARC
  5
A6
330
1F
100
AcDbEntity
  8
0
  6
Continuous
 62
     7
370
    25
100
AcDbCircle
 10
461.3223611056
 20
9.5851680021
 30
0.0
 40
2.000000000000003
100
AcDbArc
 50
260.2175929682
 51
270.0
  0
ARC
  5
A7
330
1F
100
AcDbEntity
  8
0
  6
Continuous
 62
     7
370
    25
100
AcDbCircle
 10
461.3223611056
 20
205.5851680021
 30
0.0
 40
2.000000000000028
100
AcDbArc
 50
90.0
 51
99.7824070318
  0
LINE
  5
A8
330
1F
100
AcDbEntity
  8
0
  6
Continuous
 62
     7
370
    25
100
AcDbLine
 10
460.9825468764
 20
207.5560898762
 30
0.0
 11
403.3198735818
 21
197.6142511945
 31
0.0
  0
LINE
  5
A9
330
1F
100
AcDbEntity
  8
0
  6
Continuous
 62
     7
370
    25
100
AcDbLine
 10
403.3198735818
 20
17.5560848098
 30
0.0
 11
460.9825468764
 21
7.6142461281
 31
0.0
  0
ARC
  5
AA
330
1F
100
AcDbEntity
  8
0
  6
Continuous
 62
     7
370
    25
100
AcDbCircle
 10
402.9800587543
 20
15.5851680021
 30
0.0
 40
2.000000000000004
100
AcDbArc
 50
80.2175929682
 51
90.0
  0
ARC
  5
AB
330
1F
100
AcDbEntity
  8
0
  6
Continuous
 62
     7
370
    25
100
AcDbCircle
 10
402.9800587543
 20
199.5851680021
 30
0.0
 40
2.0
100
AcDbArc
 50
270.0
 51
279.7824070318
  0
LINE
  5
AC
330
1F
100
AcDbEntity
  8
0
  6
Continuous
 62
     7
370
    25
100
AcDbLine
 10
298.1512106165
 20
17.5851644258
 30
0.0
 11
402.9800600514
 21
17.5851644258
 31
0.0
  0
LINE
  5
AD
330
1F
100
AcDbEntity
  8
0
  6
Continuous
 62
     7
370
    25
100
AcDbLine
 10
402.9800600514
 20
197.5851715784
 30
0.0
 11
298.1512106165
 21
197.5851715784
 31
0.0
  0
LINE
  5
AE
330
1F
100
AcDbEntity
  8
0
  6
Continuous
 62
     7
370
    25
100
AcDbLine
 10
573.151216577
 20
107.5851680021
 30
0.0
 11
573.151216577
 21
207.5851694922
 31
0.0
  0
LINE
  5
AF
330
1F
100
AcDbEntity
  8
0
  6
Continuous
 62
     7
370
    25
100
AcDbLine
 10
573.151216577
 20
7.585166512
 30
0.0
 11
573.151216577
 21
107.5851680021
 31
0.0
  0
LINE
  5
B0
330
1F
100
AcDbEntity
  8
0
  6
Continuous
 62
     7
370
    25
100
AcDbLine
 10
298.1512106165
 20
107.5851680021
 30
0.0
 11
298.1512106165
 21
197.5851715784
 31
0.0
  0
LINE
  5
B1
330
1F
100
AcDbEntity
  8
0
  6
Continuous
 62
     7
370
    25
100
AcDbLine
 10
298.1512106165
 20
17.5851644258
 30
0.0
 11
298.1512106165
 21
107.5851680021
 31
0.0
  0
LINE
  5
B2
330
1F
100
AcDbEntity
  8
0
  6
Continuous
 62
     1
370
    25
100
AcDbLine
 10
461.3223604068
 20
107.5851680021
 30
0.0
 11
461.3223604068
 21
207.5851694922
 31
0.0
  0
LINE
  5
B3
330
1F
100
AcDbEntity
  8
0
  6
Continuous
 62
     1
370
    25
100
AcDbLine
 10
461.3223604068
 20
7.585166512
 30
0.0
 11
461.3223604068
 21
107.5851680021
 31
0.0
  0
LINE
  5
B4
330
1F
100
AcDbEntity
  8
0
  6
Continuous
 62
     1
370
    25
100
AcDbLine
 10
460.9825468764
 20
107.5851680021
 30
0.0
 11
460.9825468764
 21
207.5560898762
 31
0.0
  0
LINE
  5
B5
330
1F
100
AcDbEntity
  8
0
  6
Continuous
 62
     1
370
    25
100
AcDbLine
 10
460.9825468764
 20
7.6142461281
 30
0.0
 11
460.9825468764
 21
107.5851680021
 31
0.0
  0
LINE
  5
B6
330
1F
100
AcDbEntity
  8
0
  6
Continuous
 62
     1
370
    25
100
AcDbLine
 10
403.3198735818
 20
107.5851680021
 30
0.0
 11
403.3198735818
 21
197.6142511945
 31
0.0
  0
LINE
  5
B7
330
1F
100
AcDbEntity
  8
0
  6
Continuous
 62
     1
370
    25
100
AcDbLine
 10
403.3198735818
 20
17.5560848098
 30
0.0
 11
403.3198735818
 21
107.5851680021
 31
0.0
  0
LINE
  5
B8
330
1F
100
AcDbEntity
  8
0
  6
Continuous
 62
     1
370
    25
100
AcDbLine
 10
402.9800600514
 20
107.5851680021
 30
0.0
 11
402.9800600514
 21
197.5851715784
 31
0.0
  0
LINE
  5
B9
330
1F
100
AcDbEntity
  8
0
  6
Continuous
 62
     1
370
    25
100
AcDbLine
 10
402.9800600514
 20
17.5851644258
 30
0.0
 11
402.9800600514
 21
107.5851680021
 31
0.0
  0
LINE
  5
BA
330
1F
100
AcDbEntity
  8
0
  6
Continuous
 62
     7
370
    25
100
AcDbLine
 10
239.3950055832
 20
399.4806721009
 30
0.0
 11
239.3950055832
 21
511.3095282711
 31
0.0
  0
LINE
  5
BB
330
1F
100
AcDbEntity
  8
0
  6
Continuous
 62
     7
370
    25
100
AcDbLine
 10
39.3950026029
 20
511.3095282711
 30
0.0
 11
39.3950026029
 21
399.4806721009
 31
0.0
  0
ARC
  5
BC
330
1F
100
AcDbEntity
  8
0
  6
Continuous
 62
     7
370
    25
100
AcDbCircle
 10
237.395004093
 20
399.4806727996
 30
0.0
 40
2.000000000000022
100
AcDbArc
 50
350.2175929682
 51
0.0
  0
ARC
  5
BD
330
1F
100
AcDbEntity
  8
0
  6
Continuous
 62
     7
370
    25
100
AcDbCircle
 10
41.395004093
 20
399.4806727996
 30
0.0
 40
2.0
100
AcDbArc
 50
180.0
 51
189.7824070318
  0
LINE
  5
BE
330
1F
100
AcDbEntity
  8
0
  6
Continuous
 62
     7
370
    25
100
AcDbLine
 10
39.424082219
 20
399.1408585704
 30
0.0
 11
49.3659209007
 21
341.4781852759
 31
0.0
  0
LINE
  5
BF
330
1F
100
AcDbEntity
  8
0
  6
Continuous
 62
     7
370
    25
100
AcDbLine
 10
229.4240872854
 20
341.4781852759
 30
0.0
 11
239.3659259671
 21
399.1408585704
 31
0.0
  0
ARC
  5
C0
330
1F
100
AcDbEntity
  8
0
  6
Continuous
 62
     7
370
    25
100
AcDbCircle
 10
231.395004093
 20
341.1383704483
 30
0.0
 40
2.0
100
AcDbArc
 50
170.2175929682
 51
180.0
  0
ARC
  5
C1
330
1F
100
AcDbEntity
  8
0
  6
Continuous
 62
     7
370
    25
100
AcDbCircle
 10
47.395004093
 20
341.1383704483
 30
0.0
 40
2.0
100
AcDbArc
 50
0.0
 51
9.7824070318
  0
LINE
  5
C2
330
1F
100
AcDbEntity
  8
0
  6
Continuous
 62
     7
370
    25
100
AcDbLine
 10
229.3950076693
 20
236.3095223106
 30
0.0
 11
229.3950076693
 21
341.1383717455
 31
0.0
  0
LINE
  5
C3
330
1F
100
AcDbEntity
  8
0
  6
Continuous
 62
     7
370
    25
100
AcDbLine
 10
49.3950005168
 20
341.1383717455
 30
0.0
 11
49.3950005168
 21
236.3095223106
 31
0.0
  0
LINE
  5
C4
330
1F
100
AcDbEntity
  8
0
  6
Continuous
 62
     7
370
    25
100
AcDbLine
 10
239.3950055832
 20
511.3095282711
 30
0.0
 11
39.3950026029
 21
511.3095282711
 31
0.0
  0
LINE
  5
C5
330
1F
100
AcDbEntity
  8
0
  6
Continuous
 62
     7
370
    25
100
AcDbLine
 10
229.3950076693
 20
236.3095223106
 30
0.0
 11
49.3950005168
 21
236.3095223106
 31
0.0
  0
LINE
  5
C6
330
1F
100
AcDbEntity
  8
0
  6
Continuous
 62
     1
370
    25
100
AcDbLine
 10
239.3950055832
 20
399.4806721009
 30
0.0
 11
39.3950026029
 21
399.4806721009
 31
0.0
  0
LINE
  5
C7
330
1F
100
AcDbEntity
  8
0
  6
Continuous
 62
     1
370
    25
100
AcDbLine
 10
239.3659259671
 20
399.1408585704
 30
0.0
 11
39.424082219
 21
399.1408585704
 31
0.0
  0
LINE
  5
C8
330
1F
100
AcDbEntity
  8
0
  6
Continuous
 62
     1
370
    25
100
AcDbLine
 10
229.4240872854
 20
341.4781852759
 30
0.0
 11
49.3659209007
 21
341.4781852759
 31
0.0
  0
LINE
  5
C9
330
1F
100
AcDbEntity
  8
0
  6
Continuous
 62
     1
370
    25
100
AcDbLine
 10
229.3950076693
 20
341.1383717455
 30
0.0
 11
49.3950005168
 21
341.1383717455
 31
0.0
  0
LINE
  5
CA
330
1F
100
AcDbEntity
  8
0
  6
Continuous
 62
     7
370
    25
100
AcDbLine
 10
39.3950026029
 20
-186.3943700984
 30
0.0
 11
39.3950026029
 21
-298.2232262685
 31
0.0
  0
LINE
  5
CB
330
1F
100
AcDbEntity
  8
0
  6
Continuous
 62
     7
370
    25
100
AcDbLine
 10
239.3950055832
 20
-298.2232262685
 30
0.0
 11
239.3950055832
 21
-186.3943700984
 31
0.0
  0
ARC
  5
CC
330
1F
100
AcDbEntity
  8
0
  6
Continuous
 62
     7
370
    25
100
AcDbCircle
 10
41.395004093
 20
-186.3943707971
 30
0.0
 40
2.0
100
AcDbArc
 50
170.2175929682
 51
180.0
  0
ARC
  5
CD
330
1F
100
AcDbEntity
  8
0
  6
Continuous
 62
     7
370
    25
100
AcDbCircle
 10
237.395004093
 20
-186.3943707971
 30
0.0
 40
2.000000000000026
100
AcDbArc
 50
0.0
 51
9.7824070318
  0
LINE
  5
CE
330
1F
100
AcDbEntity
  8
0
  6
Continuous
 62
     7
370
    25
100
AcDbLine
 10
239.3659259671
 20
-186.0545565679
 30
0.0
 11
229.4240872854
 21
-128.3918832734
 31
0.0
  0
LINE
  5
CF
330
1F
100
AcDbEntity
  8
0
  6
Continuous
 62
     7
370
    25
100
AcDbLine
 10
49.3659209007
 20
-128.3918832734
 30
0.0
 11
39.424082219
 21
-186.0545565679
 31
0.0
  0
ARC
  5
D0
330
1F
100
AcDbEntity
  8
0
  6
Continuous
 62
     7
370
    25
100
AcDbCircle
 10
47.395004093
 20
-128.0520684458
 30
0.0
 40
2.0
100
AcDbArc
 50
350.2175929682
 51
0.0
  0
ARC
  5
D1
330
1F
100
AcDbEntity
  8
0
  6
Continuous
 62
     7
370
    25
100
AcDbCircle
 10
231.395004093
 20
-128.0520684458
 30
0.0
 40
2.0
100
AcDbArc
 50
180.0
 51
189.7824070318
  0
LINE
  5
D2
330
1F
100
AcDbEntity
  8
0
  6
Continuous
 62
     7
370
    25
100
AcDbLine
 10
49.3950005168
 20
-23.2232203081
 30
0.0
 11
49.3950005168
 21
-128.0520697429
 31
0.0
  0
LINE
  5
D3
330
1F
100
AcDbEntity
  8
0
  6
Continuous
 62
     7
370
    25
100
AcDbLine
 10
229.3950076693
 20
-128.0520697429
 30
0.0
 11
229.3950076693
 21
-23.2232203081
 31
0.0
  0
LINE
  5
D4
330
1F
100
AcDbEntity
  8
0
  6
Continuous
 62
     7
370
    25
100
AcDbLine
 10
39.3950026029
 20
-298.2232262685
 30
0.0
 11
239.3950055832
 21
-298.2232262685
 31
0.0
  0
LINE
  5
D5
330
1F
100
AcDbEntity
  8
0
  6
Continuous
 62
     7
370
    25
100
AcDbLine
 10
49.3950005168
 20
-23.2232203081
 30
0.0
 11
229.3950076693
 21
-23.2232203081
 31
0.0
  0
LINE
  5
D6
330
1F
100
AcDbEntity
  8
0
  6
Continuous
 62
     1
370
    25
100
AcDbLine
 10
39.3950026029
 20
-186.3943700984
 30
0.0
 11
239.3950055832
 21
-186.3943700984
 31
0.0
  0
LINE
  5
D7
330
1F
100
AcDbEntity
  8
0
  6
Continuous
 62
     1
370
    25
100
AcDbLine
 10
39.424082219
 20
-186.0545565679
 30
0.0
 11
239.3659259671
 21
-186.0545565679
 31
0.0
  0
LINE
  5
D8
330
1F
100
AcDbEntity
  8
0
  6
Continuous
 62
     1
370
    25
100
AcDbLine
 10
49.3659209007
 20
-128.3918832734
 30
0.0
 11
229.4240872854
 21
-128.3918832734
 31
0.0
  0
LINE
  5
D9
330
1F
100
AcDbEntity
  8
0
  6
Continuous
 62
     1
370
    25
100
AcDbLine
 10
49.3950005168
 20
-128.0520697429
 30
0.0
 11
229.3950076693
 21
-128.0520697429
 31
0.0
  0
LINE
  5
DA
330
1F
100
AcDbEntity
  8
0
  6
Continuous
 62
     7
370
    25
100
AcDbLine
 10
493.8298336266
 20
-87.4523186376
 30
0.0
 11
414.7548910963
 21
-41.803325981
 31
0.0
  0
LINE
  5
DB
330
1F
100
AcDbEntity
  8
0
  6
Continuous
 62
     7
370
    25
100
AcDbLine
 10
314.7630208275
 20
-215.01309943
 30
0.0
 11
393.8379633578
 21
-260.6620920866
 31
0.0
  0
LINE
  5
DC
330
1F
100
AcDbEntity
  8
0
  6
Continuous
 62
     7
370
    25
100
AcDbLine
 10
400.5606464789
 20
-263.6482262169
 30
0.0
 11
445.6616176513
 21
-278.2905687674
 31
0.0
  0
LINE
  5
DD
330
1F
100
AcDbEntity
  8
0
  6
Continuous
 62
     7
370
    25
100
AcDbLine
 10
535.0117563826
 20
-123.514819548
 30
0.0
 11
499.777649572
 21
-91.7807111321
 31
0.0
  0
LINE
  5
DE
330
1F
100
AcDbEntity
  8
0
  6
Continuous
 62
     7
370
    25
100
AcDbLine
 10
604.2096692581
 20
-162.7199321582
 30
0.0
 11
532.7172635104
 21
-121.4482448127
 31
0.0
  0
LINE
  5
DF
330
1F
100
AcDbEntity
  8
0
  6
Continuous
 62
     7
370
    25
100
AcDbLine
 10
442.7245750001
 20
-277.3370415247
 30
0.0
 11
514.2169807478
 21
-318.6087288702
 31
0.0
  0
LWPOLYLINE
  5
E0
330
1F
100
AcDbEntity
  8
0
  6
Continuous
 62
     7
370
    25
100
AcDbPolyline
 90
      122
 70
   128
 43
0.0
 10
294.0482767896
 20
-169.2286189049
 10
294.1435918875
 20
-164.9354361173
 10
294.4292684951
 20
-160.5437851637
 10
294.9045427007
 20
-156.065501817
 10
295.5681342937
 20
-151.512657545
 10
296.4182467649
 20
-146.8975321338
 10
297.452598916
 20
-142.2325589377
 10
298.6683932499
 20
-137.5303187923
 10
300.0623581176
 20
-132.8034883069
 10
301.6307371811
 20
-128.0648048826
 10
303.3692946822
 20
-123.3270499821
 10
305.2733470523
 20
-118.6029959006
 10
307.3377629126
 20
-113.9053723056
 10
309.5569788792
 20
-109.246841903
 10
311.9250048311
 20
-104.6399761033
 10
314.4354660576
 20
-100.097178979
 10
317.0815874527
 20
-95.6307024724
 10
319.8562409307
 20
-91.2525886051
 10
322.751945426
 20
-86.9746390592
 10
325.7608906007
 20
-82.8083893239
 10
328.8749684549
 20
-78.7650721961
 10
332.0857838631
 20
-74.8555812795
 10
335.3846782821
 20
-71.0904572983
 10
338.7627613612
 20
-67.4798515979
 10
342.2109267467
 20
-64.0334987697
 10
345.7198771075
 20
-60.7606900374
 10
349.2801531101
 20
-57.6702443619
 10
352.882158444
 20
-54.770500079
 10
356.5161802363
 20
-52.0692666113
 10
360.1724229666
 20
-49.5738292247
 10
363.8410306932
 20
-47.2909179467
 10
367.5121129008
 20
-45.2266865604
 10
371.1757728179
 20
-43.3866901741
 10
374.8221344172
 20
-41.7759000528
 10
378.441367934
 20
-40.3986584677
 10
382.0237157143
 20
-39.2586759424
 10
385.559520203
 20
-38.3590211792
 10
389.0392496269
 20
-37.7021244835
 10
392.4535263121
 20
-37.2897492493
 10
395.7931398551
 20
-37.1230208578
 10
399.0490945381
 20
-37.2023810545
 10
402.2126053772
 20
-37.5276145645
 10
405.2751508065
 20
-38.0978430139
 10
408.2284700437
 20
-38.9115325344
 10
411.0646026028
 20
-39.9664952878
 10
413.7759040991
 20
-41.2598742583
 10
416.3550646887
 20
-42.7881934444
 10
418.7951301414
 20
-44.5473335266
 10
421.089525549
 20
-46.532539474
 10
423.2320605931
 20
-48.7384722562
 10
425.2169664237
 20
-51.1591784285
 10
427.0388851228
 20
-53.7881357582
 10
428.6929118508
 20
-56.618256271
 10
430.1745790419
 20
-59.6419105841
 10
431.4799038187
 20
-62.8509400777
 10
432.6053563829
 20
-66.2367070831
 10
433.5479074295
 20
-69.7900751149
 10
434.3050123428
 20
-73.5014697066
 10
434.8746375371
 20
-77.3608799338
 10
435.2552446526
 20
-81.3579048012
 10
435.4458010914
 20
-85.4817718748
 10
435.4458010914
 20
-89.7213593375
 10
435.2552446526
 20
-94.0652381923
 10
434.8746375371
 20
-98.5017026815
 10
434.3050123428
 20
-103.0187881591
 10
433.5479074295
 20
-107.6043174771
 10
432.6053563829
 20
-112.2459317834
 10
431.4799038187
 20
-116.9311186605
 10
430.1745790419
 20
-121.647244062
 10
428.6929118508
 20
-126.3815949006
 10
427.0388851228
 20
-131.1214140246
 10
425.2169664237
 20
-135.8539139091
 10
423.2320605931
 20
-140.5663435726
 10
421.089525549
 20
-145.2459946622
 10
418.7951301414
 20
-149.8802531605
 10
416.3550646887
 20
-154.4566328478
 10
413.7759040991
 20
-158.9627874656
 10
411.0646026028
 20
-163.3865685113
 10
408.2284700437
 20
-167.7160602172
 10
405.2751508065
 20
-171.9395795487
 10
402.2126053772
 20
-176.0457476862
 10
399.0490945381
 20
-180.023493065
 10
395.7931398551
 20
-183.8620985209
 10
392.4535263121
 20
-187.5512058525
 10
389.0392496269
 20
-191.0808705703
 10
385.559520203
 20
-194.4415839502
 10
382.0237157143
 20
-197.6242821542
 10
378.441367934
 20
-200.620390337
 10
374.8221344172
 20
-203.4218268247
 10
371.1757728179
 20
-206.0210361935
 10
367.5121129008
 20
-208.4110115101
 10
363.8410306932
 20
-210.5853214208
 10
360.1724229666
 20
-212.5380944648
 10
356.5161802363
 20
-214.2640650795
 10
352.882158444
 20
-215.7585838641
 10
349.2801531101
 20
-217.0176264174
 10
345.7198771075
 20
-218.0377879178
 10
342.2109267467
 20
-218.8163270366
 10
338.7627613612
 20
-219.3511412211
 10
335.3846782821
 20
-219.6407872245
 10
332.0857838631
 20
-219.6844856665
 10
328.8749684549
 20
-219.4821233118
 10
325.7608906007
 20
-219.0342439434
 10
322.751945426
 20
-218.3420483594
 10
319.8562409307
 20
-217.4074080594
 10
317.0815874527
 20
-216.2328409084
 10
314.4354660576
 20
-214.8215111341
 10
311.9250048311
 20
-213.1772308452
 10
309.5569788792
 20
-211.3044296134
 10
307.3377629126
 20
-209.2081514267
 10
305.2733470523
 20
-206.8940516493
 10
303.3692946822
 20
-204.3683696407
 10
301.6307371811
 20
-201.6379105045
 10
300.0623581176
 20
-198.7100390026
 10
298.6683932499
 20
-195.5926460956
 10
297.452598916
 20
-192.294132209
 10
296.4182467649
 20
-188.8233965865
 10
295.5681342937
 20
-185.1897901423
 10
294.9045427007
 20
-181.4031124153
 10
294.4292684951
 20
-177.4735689862
 10
294.1435918875
 20
-173.411753223
 10
294.0482767896
 20
-169.2286189049
  0
LWPOLYLINE
  5
E1
330
1F
100
AcDbEntity
  8
0
  6
Continuous
 62
     7
370
    25
100
AcDbPolyline
 90
      110
 70
   128
 43
0.0
 10
306.9176220532
 20
-161.7993040216
 10
307.013690526
 20
-157.8957653797
 10
307.3015903799
 20
-153.8942682199
 10
307.7803522372
 20
-149.8081110462
 10
308.4483903228
 20
-145.650867592
 10
309.3034919272
 20
-141.4363408117
 10
310.3428068697
 20
-137.1785396853
 10
311.5628843771
 20
-132.8916069778
 10
312.9596783519
 20
-128.589775133
 10
314.5285421042
 20
-124.28734498
 10
316.264270498
 20
-119.9985975235
 10
318.1610894153
 20
-115.73778938
 10
320.2127031704
 20
-111.5190736941
 10
322.4122945106
 20
-107.3564575525
 10
324.7525562261
 20
-103.2637776524
 10
327.2257148575
 20
-99.2546227362
 10
329.8235570376
 20
-95.3423153431
 10
332.5374505651
 20
-91.5398448902
 10
335.3583812828
 20
-87.8598524668
 10
338.2769767852
 20
-84.3145563111
 10
341.2835432972
 20
-80.9157335629
 10
344.3680920156
 20
-77.6746746379
 10
347.520377305
 20
-74.6021490106
 10
350.7299269906
 20
-71.7083633917
 10
353.986080554
 20
-69.0029275111
 10
357.2780207431
 20
-66.4948297854
 10
360.5948111091
 20
-64.1924034816
 10
363.9254347788
 20
-62.1032921666
 10
367.2588271342
 20
-60.2344430091
 10
370.583915161
 20
-58.5920536457
 10
373.8896538331
 20
-57.1815937624
 10
377.1650599452
 20
-56.0077368942
 10
380.3992550005
 20
-55.0743904192
 10
383.5814948454
 20
-54.3846541167
 10
386.7012085235
 20
-53.9408099045
 10
389.7480305441
 20
-53.7443457963
 10
392.7118443466
 20
-53.795900392
 10
395.5827981051
 20
-54.0953145909
 10
398.3513587293
 20
-54.6415882504
 10
401.0083303038
 20
-55.4329060431
 10
403.5448856978
 20
-56.4666405018
 10
405.9525955418
 20
-57.7393565852
 10
408.2234651054
 20
-59.2468299322
 10
410.3499501027
 20
-60.9840499054
 10
412.3249883024
 20
-62.9452439288
 10
414.1420126987
 20
-65.1239033447
 10
415.7949962922
 20
-67.5127818972
 10
417.2784389193
 20
-70.1039520051
 10
418.5874199353
 20
-72.8888032457
 10
419.7175876781
 20
-75.8580834191
 10
420.6651910782
 20
-79.0019289698
 10
421.4270743904
 20
-82.309899967
 10
422.0007140721
 20
-85.7710029223
 10
422.3842029783
 20
-89.3737424999
 10
422.576266167
 20
-93.1061507951
 10
422.576266167
 20
-96.9558291614
 10
422.3842029783
 20
-100.9099888942
 10
422.0007140721
 20
-104.9554953383
 10
421.4270743904
 20
-109.0789085725
 10
420.6651910782
 20
-113.266531318
 10
419.7175876781
 20
-117.5044564663
 10
418.5874199353
 20
-121.7786005408
 10
417.2784389193
 20
-126.0747690932
 10
415.7949962922
 20
-130.3786856014
 10
414.1420126987
 20
-134.6760583875
 10
412.3249883024
 20
-138.9526095166
 10
410.3499501027
 20
-143.1941341071
 10
408.2234651054
 20
-147.3865413981
 10
405.9525955418
 20
-151.5159049347
 10
403.5448856978
 20
-155.5685036325
 10
401.0083303038
 20
-159.5308826113
 10
398.3513587293
 20
-163.3898744865
 10
395.5827981051
 20
-167.132660203
 10
392.7118443466
 20
-170.7468070555
 10
389.7480305441
 20
-174.2203082294
 10
386.7012085235
 20
-177.541629948
 10
383.5814948454
 20
-180.6997304789
 10
380.3992550005
 20
-183.6841300952
 10
377.1650599452
 20
-186.484905748
 10
373.8896538331
 20
-189.0927522809
 10
370.583915161
 20
-191.4990170272
 10
367.2588271342
 20
-193.6956925828
 10
363.9254347788
 20
-195.675496318
 10
360.5948111091
 20
-197.4318412392
 10
357.2780207431
 20
-198.9588995791
 10
353.986080554
 20
-200.2515950936
 10
350.7299269906
 20
-201.3056340945
 10
347.520377305
 20
-202.1175156654
 10
344.3680920156
 20
-202.6845411632
 10
341.2835432972
 20
-203.0048263831
 10
338.2769767852
 20
-203.0773114407
 10
335.3583812828
 20
-202.9017539252
 10
332.5374505651
 20
-202.4787387817
 10
329.8235570376
 20
-201.8096630995
 10
327.2257148575
 20
-200.8967604435
 10
324.7525562261
 20
-199.7430537032
 10
322.4122945106
 20
-198.3523824659
 10
320.2127031704
 20
-196.729360429
 10
318.1610894153
 20
-194.8793875646
 10
316.264270498
 20
-192.808599927
 10
314.5285421042
 20
-190.5238818171
 10
312.9596783519
 20
-188.0328231964
 10
311.5628843771
 20
-185.3436953475
 10
310.3428068697
 20
-182.4654341456
 10
309.3034919272
 20
-179.4076005098
 10
308.4483903228
 20
-176.1803530271
 10
307.7803522372
 20
-172.794409929
 10
307.3015903799
 20
-169.2610194297
 10
307.013690526
 20
-165.5919243658
 10
306.9176220532
 20
-161.7993040216
  0
ARC
  5
E2
330
1F
100
AcDbEntity
  8
0
  6
Continuous
 62
     7
370
    25
100
AcDbCircle
 10
477.006345669
 20
-116.5700907183
 30
0.0
 40
33.62847599884324
100
AcDbArc
 50
51.1699764205
 51
59.9818002921
  0
LWPOLYLINE
  5
E3
330
1F
100
AcDbEntity
  8
0
  6
Continuous
 62
     7
370
    25
100
AcDbPolyline
 90
        3
 70
   128
 43
0.0
 10
398.8606981252
 20
-263.0300912117
 10
396.156529983
 20
-261.881833565
 10
393.8379633578
 20
-260.6620920866
  0
ARC
  5
E4
330
1F
100
AcDbEntity
  8
0
  6
Continuous
 62
     7
370
    25
100
AcDbCircle
 10
476.0878670596
 20
-118.1499877423
 30
0.0
 40
35.44630330925445
100
AcDbArc
 50
37.9661538866
 51
54.0913904367
  0
ARC
  5
E5
330
1F
100
AcDbEntity
  8
0
  6
Continuous
 62
     7
370
    25
100
AcDbCircle
 10
411.5861756555
 20
-229.819485067
 30
0.0
 40
35.57750712713309
100
AcDbArc
 50
245.9427353876
 51
262.0921683683
  0
ARC
  5
E6
330
1F
100
AcDbEntity
  8
0
  6
Continuous
 62
     7
370
    25
100
AcDbCircle
 10
513.360391599
 20
-147.5265276627
 30
0.0
 40
32.33177575673042
100
AcDbArc
 50
40.2517937923
 51
47.9590092834
  0
ARC
  5
E7
330
1F
100
AcDbEntity
  8
0
  6
Continuous
 62
     7
370
    25
100
AcDbCircle
 10
455.7070818476
 20
-247.2217270023
 30
0.0
 40
32.65247738759444
100
AcDbArc
 50
252.0824644527
 51
260.1785568399
  0
LWPOLYLINE
  5
E8
330
1F
100
AcDbEntity
  8
0
  6
Continuous
 62
     7
370
    25
100
AcDbPolyline
 90
       59
 70
   128
 43
0.0
 10
604.2096692581
 20
-162.7199321582
 10
604.8290856856
 20
-163.0874976605
 10
607.2043767005
 20
-164.6958501245
 10
609.433918645
 20
-166.5349224792
 10
611.5109469497
 20
-168.5991170829
 10
613.4291448559
 20
-170.8821762543
 10
615.1826908299
 20
-173.3771609836
 10
616.7662638323
 20
-176.0764935194
 10
618.1750485856
 20
-178.9719756198
 10
619.4047671846
 20
-182.0548174533
 10
620.4516843649
 20
-185.3156558504
 10
621.3126285761
 20
-188.7445816819
 10
621.984976177
 20
-192.331189288
 10
622.4666883137
 20
-196.0645825649
 10
622.7563003832
 20
-199.9334251551
 10
622.8529378385
 20
-203.9259640223
 10
622.7563003832
 20
-208.0300781205
 10
622.4666883137
 20
-212.2332996887
 10
621.984976177
 20
-216.5228659602
 10
621.3126285761
 20
-220.8857495827
 10
620.4516843649
 20
-225.3087004421
 10
619.4047671846
 20
-229.7782836867
 10
618.1750485856
 20
-234.2809283933
 10
616.7662638323
 20
-238.8029587478
 10
615.1826908299
 20
-243.3306457545
 10
613.4291448559
 20
-247.8502315707
 10
611.5109469497
 20
-252.3479949031
 10
609.433918645
 20
-256.8102753428
 10
607.2043767005
 20
-261.2235220337
 10
604.8290856856
 20
-265.5743271289
 10
602.3152606137
 20
-269.8494851067
 10
599.670535333
 20
-274.0360110192
 10
596.9029467204
 20
-278.1211861181
 10
594.0208925357
 20
-282.0926004372
 10
591.0331314207
 20
-285.938207545
 10
587.9487328505
 20
-289.6463108525
 10
584.7770665962
 20
-293.2056609507
 10
581.5277632128
 20
-296.605448003
 10
578.2106916482
 20
-299.8353390051
 10
574.8359263164
 20
-302.8855332961
 10
571.413715487
 20
-305.7467625555
 10
567.9544516508
 20
-308.4103383292
 10
564.4686422148
 20
-310.8681750309
 10
560.9668726233
 20
-313.112799064
 10
557.4597773825
 20
-315.1374020517
 10
553.958007791
 20
-316.9358351299
 10
550.472198355
 20
-318.5026283364
 10
547.0129345188
 20
-319.8330335737
 10
543.5907236894
 20
-320.9230048343
 10
540.2159583576
 20
-321.7692316577
 10
536.8988867931
 20
-322.3691499643
 10
533.6495834096
 20
-322.7209287442
 10
530.4779171554
 20
-322.8235065568
 10
527.3935185851
 20
-322.6765740369
 10
524.4057574701
 20
-322.2805624857
 10
521.5237032854
 20
-321.6366970995
 10
518.7561146729
 20
-320.7469117968
 10
516.1113893921
 20
-319.6139206972
 10
514.2169807478
 20
-318.6087288702
  0
LWPOLYLINE
  5
E9
330
1F
100
AcDbEntity
  8
0
  6
Continuous
 62
     1
370
    25
100
AcDbPolyline
 90
       59
 70
   128
 43
0.0
 10
498.0918072417
 20
-90.3731880718
 10
500.1644680793
 20
-92.1815321306
 10
502.3070031234
 20
-94.3874649128
 10
504.291908954
 20
-96.8081710851
 10
506.113827653
 20
-99.4371284148
 10
507.7678543811
 20
-102.2672489276
 10
509.2495215721
 20
-105.2909032407
 10
510.554846349
 20
-108.4999327343
 10
511.6802989131
 20
-111.8856997397
 10
512.6228499598
 20
-115.4390677715
 10
513.379954873
 20
-119.1504623632
 10
513.9495800674
 20
-123.0098725904
 10
514.3301871829
 20
-127.0068974578
 10
514.5207436217
 20
-131.1307645314
 10
514.5207436217
 20
-135.3703519941
 10
514.3301871829
 20
-139.7142308489
 10
513.9495800674
 20
-144.1506953381
 10
513.379954873
 20
-148.6677808156
 10
512.6228499598
 20
-153.2533101337
 10
511.6802989131
 20
-157.89492444
 10
510.554846349
 20
-162.5801113171
 10
509.2495215721
 20
-167.2962367186
 10
507.7678543811
 20
-172.0305875572
 10
506.113827653
 20
-176.7704066812
 10
504.291908954
 20
-181.5029065657
 10
502.3070031234
 20
-186.2153362292
 10
500.1644680793
 20
-190.8949873187
 10
497.8700726717
 20
-195.5292458171
 10
495.430007219
 20
-200.1056255044
 10
492.8508466294
 20
-204.6117801222
 10
490.139545133
 20
-209.0355611679
 10
487.3034125739
 20
-213.3650528737
 10
484.3500933367
 20
-217.5885722053
 10
481.2875479074
 20
-221.6947403428
 10
478.1240370683
 20
-225.6724857216
 10
474.8680823854
 20
-229.5110911775
 10
471.5284688423
 20
-233.2001985091
 10
468.1141921571
 20
-236.7298632269
 10
464.6344627333
 20
-240.0905766067
 10
461.0986582446
 20
-243.2732748108
 10
457.5163104642
 20
-246.2693829936
 10
453.8970769475
 20
-249.0708194813
 10
450.2507153482
 20
-251.6700288501
 10
446.5870554311
 20
-254.0600041667
 10
442.9159732235
 20
-256.2343140774
 10
439.2473654969
 20
-258.1870871214
 10
435.5911227665
 20
-259.9130577361
 10
431.9571009743
 20
-261.4075765207
 10
428.3550956404
 20
-262.666619074
 10
424.7948196378
 20
-263.6867805744
 10
421.285869277
 20
-264.4653196932
 10
417.8377038914
 20
-265.0001338777
 10
414.4596208124
 20
-265.2897798811
 10
411.1607263933
 20
-265.3334783231
 10
407.9499109852
 20
-265.1311159684
 10
404.835833131
 20
-264.6832366
 10
401.8268879563
 20
-263.991041016
 10
398.931183461
 20
-263.056400716
 10
398.8606981252
 20
-263.0300912117
  0
ARC
  5
EA
330
1F
100
AcDbEntity
  8
0
  6
Continuous
 62
     1
370
    25
100
AcDbCircle
 10
523.5730325459
 20
-220.0896265225
 30
0.0
 40
139.5175432137884
100
AcDbArc
 50
141.0817406509
 51
158.9236363378
  0
LWPOLYLINE
  5
EB
330
1F
100
AcDbEntity
  8
0
  6
Continuous
 62
     1
370
    25
100
AcDbPolyline
 90
       54
 70
   128
 43
0.0
 10
504.0328217395
 20
-96.3435683609
 10
504.5146129015
 20
-96.9693498125
 10
506.336004765
 20
-99.5975405462
 10
507.9895468042
 20
-102.4268366718
 10
509.4707872584
 20
-105.4496088078
 10
510.7757274453
 20
-108.6577105006
 10
511.9008533714
 20
-112.0424919154
 10
512.8431304636
 20
-115.594827213
 10
513.6000193742
 20
-119.3051404061
 10
514.1694759811
 20
-123.1634296952
 10
514.5499671928
 20
-127.1592952261
 10
514.740470948
 20
-131.2819615238
 10
514.740470948
 20
-135.5203162761
 10
514.5499671928
 20
-139.862933528
 10
514.1694759811
 20
-144.2981048609
 10
513.6000193742
 20
-148.8138747535
 10
512.8431304636
 20
-153.3980732817
 10
511.9008533714
 20
-158.0383385526
 10
510.7757274453
 20
-162.7221627108
 10
509.4707872584
 20
-167.4369162733
 10
507.9895468042
 20
-172.1698922351
 10
506.336004765
 20
-176.9083273621
 10
504.5146129015
 20
-181.6394523791
 10
502.5302865901
 20
-186.350510222
 10
500.388373212
 20
-191.0288016622
 10
498.0946468856
 20
-195.6617157249
 10
495.6552873926
 20
-200.2367631475
 10
493.0768749096
 20
-204.7416037556
 10
490.3663636667
 20
-209.1641012141
 10
487.5310556053
 20
-213.4923321498
 10
484.5785951101
 20
-217.7146256958
 10
481.516940033
 20
-221.8196045528
 10
478.354348522
 20
-225.7961925934
 10
475.0993421432
 20
-229.6336787369
 10
471.7606979776
 20
-233.321709344
 10
468.3474170117
 20
-236.850355135
 10
464.8686991122
 20
-240.2100891335
 10
461.333921953
 20
-243.391865753
 10
457.75261599
 20
-246.3870987407
 10
454.1344354859
 20
-249.1877144076
 10
450.4891341433
 20
-251.786171778
 10
446.8265392573
 20
-254.1754531771
 10
443.1565246327
 20
-256.3491285342
 10
439.4889838305
 20
-258.3013343255
 10
435.8338036617
 20
-260.0268010431
 10
432.2008388334
 20
-261.5208860827
 10
428.5998819023
 20
-262.7795606704
 10
425.0406411317
 20
-263.7994287293
 10
421.5327101978
 20
-264.577738284
 10
418.0855484341
 20
-265.1123989491
 10
414.7084479035
 20
-265.4019644357
 10
411.4105123252
 20
-265.4456508002
 10
408.2006294161
 20
-265.2433463282
 10
406.6914245279
 20
-265.0586738315
  0
LWPOLYLINE
  5
EC
330
1F
100
AcDbEntity
  8
0
  6
Continuous
 62
     1
370
    25
100
AcDbPolyline
 90
       51
 70
   128
 43
0.0
 10
538.0363986242
 20
-126.6354194855
 10
539.0811873887
 20
-127.9293538751
 10
540.8353023452
 20
-130.4251447485
 10
542.4193811098
 20
-133.1253503431
 10
543.82862421
 20
-136.0217693768
 10
545.0587379357
 20
-139.1056074538
 10
546.1059975592
 20
-142.3674968428
 10
546.9672157249
 20
-145.7975329758
 10
547.6397793284
 20
-149.385300308
 10
548.1216495158
 20
-153.1198989335
 10
548.4113564157
 20
-156.9899902126
 10
548.5080254811
 20
-160.9838188279
 10
548.4113564157
 20
-165.0892591704
 10
548.1216495158
 20
-169.2938389164
 10
547.6397793284
 20
-173.5847930179
 10
546.9672157249
 20
-177.9490857578
 10
546.1059975592
 20
-182.3734632199
 10
545.0587379357
 20
-186.8444928328
 10
543.82862421
 20
-191.3485899864
 10
542.4193811098
 20
-195.8720864704
 10
540.8353023452
 20
-200.4012304765
 10
539.0811873887
 20
-204.9222793699
 10
537.1623678165
 20
-209.4214966491
 10
535.0846704306
 20
-213.8852188636
 10
532.8544067213
 20
-218.2998890733
 10
530.4783465264
 20
-222.6521055154
 10
527.9637127619
 20
-226.9286428971
 10
525.3181340074
 20
-231.1165193116
 10
522.5496497744
 20
-235.2030084064
 10
519.6666657248
 20
-239.1757139041
 10
516.6779378665
 20
-243.0225604758
 10
513.5925409428
 20
-246.7318667418
 10
510.4198499932
 20
-250.2923680848
 10
507.1694982069
 20
-253.6932470634
 10
503.8513545319
 20
-256.9241828409
 10
500.4754986504
 20
-259.9753656313
 10
497.0521827833
 20
-262.8375187494
 10
493.5918013971
 20
-265.5019526006
 10
490.1048655207
 20
-267.9605795077
 10
486.6019643852
 20
-270.2059358555
 10
483.0937361185
 20
-272.231192925
 10
479.5908349829
 20
-274.0302001416
 10
476.1038991065
 20
-275.5975037031
 10
472.6435177203
 20
-276.9283411587
 10
469.2202018532
 20
-278.0186644099
 10
465.8443459717
 20
-278.8651618558
 10
462.5262022967
 20
-279.4652732193
 10
459.2758505104
 20
-279.8171705331
 10
456.1031595609
 20
-279.919780189
 10
453.0177626372
 20
-279.7727973849
 10
450.1372784225
 20
-279.3956538586
  0
ARC
  5
ED
330
1F
100
AcDbEntity
  8
0
  6
Continuous
 62
     1
370
    25
100
AcDbCircle
 10
524.5492538227
 20
-220.6531881305
 30
0.0
 40
139.9064683020778
100
AcDbArc
 50
142.1324372217
 51
157.8729392729
  0
LWPOLYLINE
  5
EE
330
1F
100
AcDbEntity
  8
0
  6
Continuous
 62
     1
370
    25
100
AcDbPolyline
 90
       55
 70
   128
 43
0.0
 10
534.2161292499
 20
-122.7982220809
 10
535.3087283456
 20
-123.7433609634
 10
537.3857566503
 20
-125.8075555671
 10
539.3039545565
 20
-128.0906147384
 10
541.0575005306
 20
-130.5855994678
 10
542.6410735329
 20
-133.2849320035
 10
544.0498582862
 20
-136.180414104
 10
545.2795768852
 20
-139.2632559375
 10
546.3264940655
 20
-142.5240943346
 10
547.1874382767
 20
-145.9530201661
 10
547.8597858776
 20
-149.5396277722
 10
548.3414980143
 20
-153.2730210491
 10
548.6311100839
 20
-157.1418636393
 10
548.7277475391
 20
-161.1344025065
 10
548.6311100839
 20
-165.2385166047
 10
548.3414980143
 20
-169.4417381728
 10
547.8597858776
 20
-173.7313044444
 10
547.1874382767
 20
-178.0941880669
 10
546.3264940655
 20
-182.5171389263
 10
545.2795768852
 20
-186.9867221709
 10
544.0498582862
 20
-191.4893668775
 10
542.6410735329
 20
-196.011397232
 10
541.0575005306
 20
-200.5390842387
 10
539.3039545565
 20
-205.0586700548
 10
537.3857566503
 20
-209.5564333873
 10
535.3087283456
 20
-214.018713827
 10
533.0791864011
 20
-218.4319605179
 10
530.7038953862
 20
-222.782765613
 10
528.1900703144
 20
-227.0579235909
 10
525.5453450336
 20
-231.2444495034
 10
522.7777564211
 20
-235.3296246023
 10
519.8957022363
 20
-239.3010389213
 10
516.9079411213
 20
-243.1466460292
 10
513.8235425511
 20
-246.8547493366
 10
510.6518762968
 20
-250.4140994349
 10
507.4025729134
 20
-253.8138864872
 10
504.0855013488
 20
-257.0437774893
 10
500.710736017
 20
-260.0939717803
 10
497.2885251876
 20
-262.9552010397
 10
493.8292613514
 20
-265.6187768134
 10
490.3434519154
 20
-268.076613515
 10
486.841682324
 20
-270.3212375482
 10
483.3345870831
 20
-272.3458405359
 10
479.8328174917
 20
-274.1442736141
 10
476.3470080556
 20
-275.7110668206
 10
472.8877442195
 20
-277.0414720578
 10
469.46553339
 20
-278.1314433184
 10
466.0907680582
 20
-278.9776701419
 10
462.7736964937
 20
-279.5775884484
 10
459.5243931103
 20
-279.9293672283
 10
456.352726856
 20
-280.0319450409
 10
453.2683282857
 20
-279.885012521
 10
450.2805671708
 20
-279.4890009699
 10
447.398512986
 20
-278.8451355837
 10
444.6431812039
 20
-277.9599309386
  0
ENDSEC
  0
SECTION
  2
OBJECTS
  0
DICTIONARY
  5
C
330
0
100
AcDbDictionary
281
     1
  3
ACAD_GROUP
350
D
  3
ACAD_LAYOUT
350
1A
  3
ACAD_MLINESTYLE
350
17
  3
ACAD_PLOTSETTINGS
350
19
  3
ACAD_PLOTSTYLENAME
350
E
  3
ACAD_SCALELIST
350
47
  0
DICTIONARY
  5
D
102
{ACAD_REACTORS
330
C
102
}
330
C
100
AcDbDictionary
281
     1
  0
DICTIONARY
  5
1A
102
{ACAD_REACTORS
330
C
102
}
330
C
100
AcDbDictionary
281
     1
  3
Layout1
350
1E
  3
Layout2
350
26
  3
Model
350
22
  0
DICTIONARY
  5
17
102
{ACAD_REACTORS
330
C
102
}
330
C
100
AcDbDictionary
281
     1
  3
Standard
350
18
  0
DICTIONARY
  5
19
102
{ACAD_REACTORS
330
C
102
}
330
C
100
AcDbDictionary
281
     1
  0
ACDBDICTIONARYWDFLT
  5
E
102
{ACAD_REACTORS
330
C
102
}
330
C
100
AcDbDictionary
281
     1
  3
Normal
350
F
100
AcDbDictionaryWithDefault
340
F
  0
DICTIONARY
  5
47
102
{ACAD_REACTORS
330
C
102
}
330
C
100
AcDbDictionary
281
     1
  3
A0
350
48
  3
A1
350
49
  3
A2
350
4A
  3
A3
350
4B
  3
A4
350
4C
  3
A5
350
4D
  3
A6
350
4E
  3
A7
350
4F
  3
A8
350
50
  3
A9
350
51
  3
B0
350
52
  3
B1
350
53
  3
B2
350
54
  3
B3
350
55
  3
B4
350
56
  3
B5
350
57
  3
B6
350
58
  3
B7
350
59
  3
B8
350
5A
  3
B9
350
5B
  3
C0
350
5C
  3
C1
350
5D
  3
C2
350
5E
  3
C3
350
5F
  3
C4
350
60
  3
C5
350
61
  3
C6
350
62
  3
C7
350
63
  3
C8
350
64
  3
C9
350
65
  3
D0
350
66
  3
D1
350
67
  3
D2
350
68
  0
LAYOUT
  5
1E
102
{ACAD_REACTORS
330
1A
102
}
330
1A
100
AcDbPlotSettings
  1

  2
none_device
  4

  6

 40
0.0
 41
0.0
 42
0.0
 43
0.0
 44
0.0
 45
0.0
 46
0.0
 47
0.0
 48
0.0
 49
0.0
140
0.0
141
0.0
142
1.0
143
1.0
 70
   688
 72
     1
 73
     0
 74
     5
  7

 75
    16
147
1.0
148
0.0
149
0.0
100
AcDbLayout
  1
Layout1
 70
     1
 71
     1
 10
0.0
 20
0.0
 11
420.0
 21
297.0
 12
0.0
 22
0.0
 32
0.0
 14
1.0000000000E+20
 24
1.0000000000E+20
 34
1.0000000000E+20
 15
-1.0000000000E+20
 25
-1.0000000000E+20
 35
-1.0000000000E+20
146
0.0
 13
0.0
 23
0.0
 33
0.0
 16
1.0
 26
0.0
 36
0.0
 17
0.0
 27
1.0
 37
0.0
 76
     0
330
1B
  0
LAYOUT
  5
26
102
{ACAD_REACTORS
330
1A
102
}
330
1A
100
AcDbPlotSettings
  1

  2
none_device
  4

  6

 40
0.0
 41
0.0
 42
0.0
 43
0.0
 44
0.0
 45
0.0
 46
0.0
 47
0.0
 48
0.0
 49
0.0
140
0.0
141
0.0
142
1.0
143
1.0
 70
   688
 72
     1
 73
     0
 74
     5
  7

 75
    16
147
1.0
148
0.0
149
0.0
100
AcDbLayout
  1
Layout2
 70
     1
 71
     2
 10
0.0
 20
0.0
 11
0.0
 21
0.0
 12
0.0
 22
0.0
 32
0.0
 14
0.0
 24
0.0
 34
0.0
 15
0.0
 25
0.0
 35
0.0
146
0.0
 13
0.0
 23
0.0
 33
0.0
 16
1.0
 26
0.0
 36
0.0
 17
0.0
 27
1.0
 37
0.0
 76
     0
330
23
  0
LAYOUT
  5
22
102
{ACAD_REACTORS
330
1A
102
}
330
1A
100
AcDbPlotSettings
  1

  2
none_device
  4
Letter_(8.50_x_11.00_Inches)
  6

 40
6.35
 41
6.35
 42
6.35000508
 43
6.35000508
 44
215.9
 45
279.4
 46
0.0
 47
0.0
 48
0.0
 49
0.0
140
0.0
141
0.0
142
1.0
143
1.0
 70
  1712
 72
     1
 73
     0
 74
     0
  7

 75
     0
147
1.0
148
0.0
149
0.0
100
AcDbLayout
  1
Model
 70
     1
 71
     0
 10
0.0
 20
0.0
 11
279.4
 21
215.9
 12
0.0
 22
0.0
 32
0.0
 14
0.0
 24
0.0
 34
0.0
 15
279.4
 25
215.9
 35
0.0
146
0.0
 13
0.0
 23
0.0
 33
0.0
 16
1.0
 26
0.0
 36
0.0
 17
0.0
 27
1.0
 37
0.0
 76
     0
330
1F
331
29
  0
MLINESTYLE
  5
18
102
{ACAD_REACTORS
330
17
102
}
330
17
100
AcDbMlineStyle
  2
Standard
 70
     0
  3

 62
   256
 51
90.0
 52
90.0
 71
     2
 49
0.5
 62
   256
  6
BYLAYER
 49
-0.5
 62
   256
  6
BYLAYER
  0
ACDBPLACEHOLDER
  5
F
102
{ACAD_REACTORS
330
E
102
}
330
E
  0
SCALE
  5
48
102
{ACAD_REACTORS
330
47
102
}
330
47
100
AcDbScale
 70
     0
300
1:1
140
1.0
141
1.0
290
     1
  0
SCALE
  5
49
102
{ACAD_REACTORS
330
47
102
}
330
47
100
AcDbScale
 70
     0
300
1:2
140
1.0
141
2.0
290
     0
  0
SCALE
  5
4A
102
{ACAD_REACTORS
330
47
102
}
330
47
100
AcDbScale
 70
     0
300
1:4
140
1.0
141
4.0
290
     0
  0
SCALE
  5
4B
102
{ACAD_REACTORS
330
47
102
}
330
47
100
AcDbScale
 70
     0
300
1:5
140
1.0
141
5.0
290
     0
  0
SCALE
  5
4C
102
{ACAD_REACTORS
330
47
102
}
330
47
100
AcDbScale
 70
     0
300
1:8
140
1.0
141
8.0
290
     0
  0
SCALE
  5
4D
102
{ACAD_REACTORS
330
47
102
}
330
47
100
AcDbScale
 70
     0
300
1:10
140
1.0
141
10.0
290
     0
  0
SCALE
  5
4E
102
{ACAD_REACTORS
330
47
102
}
330
47
100
AcDbScale
 70
     0
300
1:16
140
1.0
141
16.0
290
     0
  0
SCALE
  5
4F
102
{ACAD_REACTORS
330
47
102
}
330
47
100
AcDbScale
 70
     0
300
1:20
140
1.0
141
20.0
290
     0
  0
SCALE
  5
50
102
{ACAD_REACTORS
330
47
102
}
330
47
100
AcDbScale
 70
     0
300
1:30
140
1.0
141
30.0
290
     0
  0
SCALE
  5
51
102
{ACAD_REACTORS
330
47
102
}
330
47
100
AcDbScale
 70
     0
300
1:40
140
1.0
141
40.0
290
     0
  0
SCALE
  5
52
102
{ACAD_REACTORS
330
47
102
}
330
47
100
AcDbScale
 70
     0
300
1:50
140
1.0
141
50.0
290
     0
  0
SCALE
  5
53
102
{ACAD_REACTORS
330
47
102
}
330
47
100
AcDbScale
 70
     0
300
1:100
140
1.0
141
100.0
290
     0
  0
SCALE
  5
54
102
{ACAD_REACTORS
330
47
102
}
330
47
100
AcDbScale
 70
     0
300
2:1
140
2.0
141
1.0
290
     0
  0
SCALE
  5
55
102
{ACAD_REACTORS
330
47
102
}
330
47
100
AcDbScale
 70
     0
300
4:1
140
4.0
141
1.0
290
     0
  0
SCALE
  5
56
102
{ACAD_REACTORS
330
47
102
}
330
47
100
AcDbScale
 70
     0
300
8:1
140
8.0
141
1.0
290
     0
  0
SCALE
  5
57
102
{ACAD_REACTORS
330
47
102
}
330
47
100
AcDbScale
 70
     0
300
10:1
140
10.0
141
1.0
290
     0
  0
SCALE
  5
58
102
{ACAD_REACTORS
330
47
102
}
330
47
100
AcDbScale
 70
     0
300
100:1
140
100.0
141
1.0
290
     0
  0
SCALE
  5
59
102
{ACAD_REACTORS
330
47
102
}
330
47
100
AcDbScale
 70
     0
300
1/128" = 1'-0"
140
0.0078125
141
12.0
290
     0
  0
SCALE
  5
5A
102
{ACAD_REACTORS
330
47
102
}
330
47
100
AcDbScale
 70
     0
300
1/64" = 1'-0"
140
0.015625
141
12.0
290
     0
  0
SCALE
  5
5B
102
{ACAD_REACTORS
330
47
102
}
330
47
100
AcDbScale
 70
     0
300
1/32" = 1'-0"
140
0.03125
141
12.0
290
     0
  0
SCALE
  5
5C
102
{ACAD_REACTORS
330
47
102
}
330
47
100
AcDbScale
 70
     0
300
1/16" = 1'-0"
140
0.0625
141
12.0
290
     0
  0
SCALE
  5
5D
102
{ACAD_REACTORS
330
47
102
}
330
47
100
AcDbScale
 70
     0
300
3/32" = 1'-0"
140
0.09375
141
12.0
290
     0
  0
SCALE
  5
5E
102
{ACAD_REACTORS
330
47
102
}
330
47
100
AcDbScale
 70
     0
300
1/8" = 1'-0"
140
0.125
141
12.0
290
     0
  0
SCALE
  5
5F
102
{ACAD_REACTORS
330
47
102
}
330
47
100
AcDbScale
 70
     0
300
3/16" = 1'-0"
140
0.1875
141
12.0
290
     0
  0
SCALE
  5
60
102
{ACAD_REACTORS
330
47
102
}
330
47
100
AcDbScale
 70
     0
300
1/4" = 1'-0"
140
0.25
141
12.0
290
     0
  0
SCALE
  5
61
102
{ACAD_REACTORS
330
47
102
}
330
47
100
AcDbScale
 70
     0
300
3/8" = 1'-0"
140
0.375
141
12.0
290
     0
  0
SCALE
  5
62
102
{ACAD_REACTORS
330
47
102
}
330
47
100
AcDbScale
 70
     0
300
1/2" = 1'-0"
140
0.5
141
12.0
290
     0
  0
SCALE
  5
63
102
{ACAD_REACTORS
330
47
102
}
330
47
100
AcDbScale
 70
     0
300
3/4" = 1'-0"
140
0.75
141
12.0
290
     0
  0
SCALE
  5
64
102
{ACAD_REACTORS
330
47
102
}
330
47
100
AcDbScale
 70
     0
300
1" = 1'-0"
140
1.0
141
12.0
290
     0
  0
SCALE
  5
65
102
{ACAD_REACTORS
330
47
102
}
330
47
100
AcDbScale
 70
     0
300
1-1/2" = 1'-0"
140
1.5
141
12.0
290
     0
  0
SCALE
  5
66
102
{ACAD_REACTORS
330
47
102
}
330
47
100
AcDbScale
 70
     0
300
3" = 1'-0"
140
3.0
141
12.0
290
     0
  0
SCALE
  5
67
102
{ACAD_REACTORS
330
47
102
}
330
47
100
AcDbScale
 70
     0
300
6" = 1'-0"
140
6.0
141
12.0
290
     0
  0
SCALE
  5
68
102
{ACAD_REACTORS
330
47
102
}
330
47
100
AcDbScale
 70
     0
300
1'-0" = 1'-0"
140
12.0
141
12.0
290
     0
  0
ENDSEC
  0
EOF
